Мой треклист — слушать онлайн и скачать mp3-музыку бесплатно

Аккорды к песне Где Среди Пампасов (из К/ф "12 Стульев"), Песни из кинофильмов бесплатно

Исполнитель:Песни из кинофильмов
Песня:Где Среди Пампасов (из К/ф "12 Стульев")
Am (ресгеадо) (e)|------------
|------------
|---1--------
|------2-----
|------2-----
|------------

Где среди пампасов бегают бизоны,
A7 Dm
Где над баобабами закаты, словно кровь,
Dm (e)|------------
|------------
|---1--------
|------2-----
|------2-----
|------------
Am (f)|-1------------
|-1------------
|-1--2---------
|-1-----3------
|-1-----3------
|-1-----------

Жил пират угрюмый в дебрях Амазонки,
Dm (e)|------------
|------------
|---1--------
|------2-----
|------2-----
|------------
(ресгеадо)
Жил пират, не верящий в любовь;
1|--1--0---------------------
2|--------3--1--0------------
3|---------------------------
4|---------------------------
5|---------------------------
6|---------------------------

Hо однажды утром, после канонады,
после страшной битвы возвращался он домой,
стройная фигурка цвета шоколада
помахала с берега рукой.

1|--1--0---------------------
2|--------3--1--0------------
3|---------------------------
4|---------------------------
5|---------------------------
6|---------------------------

Словно статуэтка, девушка стояла,
И пират корабль свой к ней направить поспешил,
И в нее влюбился, и ее назвал он:
"Птичка на ветвях моей души".

1|--1--0---------------------
2|--------3--1--0------------
3|---------------------------
4|---------------------------
5|---------------------------
6|---------------------------

Hо однажды ночью с молодым ковбоем
стройную креолку он увидел на песке,
и одною пулей (Бабах!) он убил обоих,
и бродил по берегу в тоске.
Dm Am
Там где любовь, там где любовь
Dm (f)|-1------------
|-1------------
|-1--2---------
|-1-----3------
|-1-----3------
|-1-----------
(e)|------------
|------------
|---1--------
|------2-----
|------2-----
|------------

там всегда проливается кровь

1|--1--0---------------------
2|--------3--1--0------------
3|---------------------------
4|---------------------------
5|---------------------------
6|---------------------------

Hа другое утро, плача о креолке,
чувствуя, что страсти не унять, не потушить,
Выстрелил в себя он (Ах!), чтоб навек умолкла
птичка на ветвях его души.
Там где любовь, там где любовь
там всегда проливается кровь
P.S. Вся песня играется короткими ударами вниз, только вначале и конце
куплета можно играть ресгеадо (удар по струнам раскрывающимися пальцами,
как во фламенко).
Мы очень трепетно относимся к желаниям пользователей, стараемся улучшить проект, добавить что-то новое, исправить то что неудобно, и т.д. Если у Вас есть вопросы, предложения, пожелания, если Вы нашли на сайте ошибку, пожалуйста, воспользуйтесь этой формой.
Популярные жанры
Интересные проекы