Мой треклист — слушать онлайн и скачать mp3-музыку бесплатно

Аккорды к песне Осень, ДДТ бесплатно

Исполнитель:ДДТ
Песня:Осень
mp3-трек:
4681 Скачать трек
Просто текст: присутствует
Табулатура: Есть таб для Guitar Pro
Клип: смотреть


ДДТ - Осень

Проигрыш после второго припевa:

Dm (e)|------------
|------------
|---1--------
|------2-----
|------2-----
|------------
Dm Dsus4 E
----------------------------|---1---0-------------1---1-3-1--4----
---------------------------*|---3---0-------------3---3-3-3--5----
----------------------------|---2---1-------------2---2-2-2--4----
----------------------------|---0---2------0------0---0-0-0--2----
--2-3-0-2-3-0---0-3-2------*|-------2--2-3---2-3-------------2----
--------------1-------4-0---|-------0------------------------0----
First Снято Aлексеем Гущиным
time only AКA ICanDance.

Хотя вместо Е можно игрaть и Е. :)

Мы очень трепетно относимся к желаниям пользователей, стараемся улучшить проект, добавить что-то новое, исправить то что неудобно, и т.д. Если у Вас есть вопросы, предложения, пожелания, если Вы нашли на сайте ошибку, пожалуйста, воспользуйтесь этой формой.
Популярные жанры
Интересные проекы