Мой треклист — слушать онлайн и скачать mp3-музыку бесплатно

Аккорды к песне владимирский централ, Михаил Круг бесплатно

Исполнитель:Михаил Круг
Песня:владимирский централ
mp3-трек:
27978 Скачать трек
Круг - владимирский централ


Var.1
~~~~~

Dm (e)|------------
|------------
|---1--------
|------2-----
|------2-----
|------------

весна опять пришла,


Am (f)|-1------------
|-1------------
|-1--2---------
|-1-----3------
|-1-----3------
|-1-----------



И лучики тепла


Dm (g)
|------3---
|----------
|----------
|----------
|----2-----
|------3---
(c)|----------
|---1------
|----------
|-----2----
|-------3--
|-------3--
(a)|----------
|---2------
|---2------
|---2------
|----------
|----------



Доверчиво глядят в мое окно.


Dm (e)|------------
|------------
|---1--------
|------2-----
|------2-----
|------------
Am (f)|-1------------
|-1------------
|-1--2---------
|-1-----3------
|-1-----3------
|-1-----------



Опять защемит грудь, и в душу влезет грусть


Dm (e)|------------
|------------
|---1--------
|------2-----
|------2-----
|------------
Am


По памяти пойдет со мной...





Пойдет разворошив


И вместе согрешим


С той девочкой что так давно любил


С той девочкой ушла


С той девочкой пришла


Забыть еЈ не хватит сил





Dm (e)|------------
|------------
|---1--------
|------2-----
|------2-----
|------------



Припев: владимирский централ - ветер северный,


Am (f)|-1------------
|-1------------
|-1--2---------
|-1-----3------
|-1-----3------
|-1-----------



Этапом из Твери шел немеренно,


Dm (g)
|------3---
|----------
|----------
|----------
|----2-----
|------3---
(c)|----------
|---1------
|----------
|-----2----
|-------3--
|-------3--



чежит на сердце тяжкий груз.


Dm (e)|------------
|------------
|---1--------
|------2-----
|------2-----
|------------



владимирский централ - ветер северный,


Am (f)|-1------------
|-1------------
|-1--2---------
|-1-----3------
|-1-----3------
|-1-----------



Когда я банковал жизнь размеренно,


Dm (e)|------------
|------------
|---1--------
|------2-----
|------2-----
|------------
Am


Но не очко обычно губит, а к одиннадцати туз.





Там за окном ззка


Проталина тонка


И всЈ что не долга моя судьба


Я радуюсь что здесь


Хоть зто-то но есть


Как мне твоя любовь нужна
Мы очень трепетно относимся к желаниям пользователей, стараемся улучшить проект, добавить что-то новое, исправить то что неудобно, и т.д. Если у Вас есть вопросы, предложения, пожелания, если Вы нашли на сайте ошибку, пожалуйста, воспользуйтесь этой формой.
Популярные жанры
Интересные проекы